Theatres Des Vampires

LiveInternet


Quantcast

Вход в обитель



Логин:
Пароль:

Мини-чат

Твой любимый альбом Theatres des Vampires?
Всего ответов:427

Статистика

Ищу табулатуры TDV - Форум Вампиров

Страница 1 из 11
Форум Вампиров » Разное » В поисках... » Ищу табулатуры TDV (Табулатуры для Gp5)
Ищу табулатуры TDV
sorrowbloodДата: Вторник, 10.03.2009, 20:32 | Сообщение # 1
Чистокровный вампир
† Тёмный Господин †
1618
Заслуги: 10
7
На охоте
Если кто-нибудь знает,где найти табулатуры TDV,можно Gp5,можно просто аккорды - дайте ссылку пожалуйста....
 
destroyerДата: Четверг, 12.03.2009, 23:20 | Сообщение # 2
Рождённый тьмой
Чистокровный вампир
† Владыка Обители †
6605
Заслуги: 22
16
На охоте
Есть у меня одна.
dances with satan.gp3

Далее идут табулатуры в текстовом документе:
Dominion

Luciferia

NeverAgain

The Dark Domain

Это все, что я в свое время смог найти.


Вампиризм — это способ жизни, основанный на отъёме крови у жертвы, обычно питье оной из человека/животного.
 
sorrowbloodДата: Воскресенье, 15.03.2009, 04:23 | Сообщение # 3
Чистокровный вампир
† Тёмный Господин †
1618
Заслуги: 10
7
На охоте
destroyer:Спасибо хоть за это.....
 
VampyrДата: Понедельник, 16.03.2009, 13:36 | Сообщение # 4
Вурдалак
† Почётный сородич клана †
498
Заслуги: 7
6
На охоте
Я нашел табулатуру:

Queen Of The Damned

INTRO & VERSE
e|----------------------------|
B|----------------------------|
G|----------------------------|
D|---10xxx-8xxxx-5xxxx 6xxxx--|
A|---10xxx-8xxxx-5xxxx-6xxxx--|
E|---8-xxx-6xxxx-3xxxx-4xxxx--|

RIFF
e|------------------------------------------------------ -----------|
B|-----------------------------------------------------------------|
G|---8-8-8-7-0----8-8-8-8-7-8-10----8-8-8-7-0---8-7-0--- 8-7-0---8-7|x2
D|-----------------------------------------------------------------|
A|---------------------------------------------------- -------------|
E|-----------------------------------------------------------------|
When the sky become dark
I come out from my coffin
In search of my new victim
Unholy passion... hot blood on my mouth
Pointed teeth on your neck
I feel your soul inside me

BRIDGE
e|-----------------------------|
B|-----------------------------|
G|----------8-x-x--------------|
D|---10-x-x-8-x-x-8-x-x- 5-x-x-x|
A|---10-x-x-6-x-x-8-x-x-5-x-x-x|
E|---8--x-x-------6-x-x-3-x-x-x|
I feel your enjoyment...
I feel you... in my veins...

VERSE + RIFF
e|----------------------------|
B|----------------------------|
G|----------------------------|
D|---10xxx-8xxxx-5xxxx 6xxxx--|
A|---10xxx-8xxxx-5xxxx-6xxxx--|
E|---8-xxx-6xxxx-3xxxx-4xxxx--|
When the light leaves the earth
I rise from my grave
Queen of the damned... I love the blood
I cut the throat of innocent virgins! For my thirst

CHORUS
e|-----------------------------|
B|-----------------------------|
G|----------8-x-x--------------|
D|---10-x-x-8-x-x-8- x-x-5-x-x-x|
A|---10-x-x-6-x-x-8-x-x-5-x-x-x|
E|---8--x-x-------6-x-x-3-x-x-x|
She who loves the pain!
She who loves the suffering!
She who loves the lust!
She that want satisfy my thirst!
She who loves the blood!
She who loves the death!
She who loves the evil!

VERSE + RIFF
e|----------------------------|
B|----------------------------|
G|----------------------------|
D|---10xxx-8xxxx-5xxxx 6xxxx--|
A|---10xxx-8xxxx-5xxxx-6xxxx--|
E|---8-xxx-6xxxx-3xxxx-4xxxx--|
.............satisfy my thirst!

SOLO VIOLIN
e|---------------------------------|
B|---------------------------------|
G|-----------------8--8------------|
D|------10---10--- 8--8---6--6--3--5|
A|----10---10----6--6---6--6--3--5-|
E|---8----8------------4--4--1--3--|

VOICE
e|----------------------------|
B| ----------------------------|
G|----------8-----------------|
D|---10-----8----6----3----5--|
A|---10-----6----6----3----5--|
E|---8---- -------4----1----3--|
Oh! I feel you... I feel... in my veins...

VERSE2
e|----------------------------|
B|----------------------------|
G|----------8xx---------------|
D|---10xxx--8xx--6xx- -3xxx-5xx|
A|---10xxx--6xx--6xx--3xxx-5xx|
E|---8xxxx-------4xx--1xxx-3xx|
She who loves the pain!
She who loves the suffering!
She who loves the lust!
She that want satisfy my thirst!
She who loves the blood!
She who loves the death!
She who loves the evil!
She that want satisfy my thirst!

ENDING + RIFF
e|----------------------------|
B|----------------------------|
G|----------------------------|
D|---10xxx-8xxxx-5xxxx 6xxxx--|
A|---10xxx-8xxxx-5xxxx-6xxxx--|
E|---8-xxx-6xxxx-3xxxx-4xxxx--|
.............satisfy my thirst!

Tabbed by catrina@bsdmail.org from Chile =)

 
sorrowbloodДата: Среда, 18.03.2009, 18:26 | Сообщение # 5
Чистокровный вампир
† Тёмный Господин †
1618
Заслуги: 10
7
На охоте
Vampyr:Спасибо...Сейчас постепенно можно будет найти все табы....И можно будет учиться играть....
 
VampyrДата: Среда, 15.04.2009, 13:00 | Сообщение # 6
Вурдалак
† Почётный сородич клана †
498
Заслуги: 7
6
На охоте
sorrowblood, боюсь тебя разочаровать, но на данный момент во всем инете это все, что есть. Единственное, на что можно надеяться это то, что кто-нибудь подберет и переведет в "гитарПро" и выложит.
 
sorrowbloodДата: Воскресенье, 19.04.2009, 02:50 | Сообщение # 7
Чистокровный вампир
† Тёмный Господин †
1618
Заслуги: 10
7
На охоте
Потому я и прошу.....Может кто случайно наткнется........Но все-равно спасибо.....
 
ProserpinaДата: Среда, 06.05.2009, 20:17 | Сообщение # 8
Вурдалак
† Тёмная Госпожа †
260
Заслуги: 7
7
На охоте
Еще 4:
The snow turns red
Queen of the damned
Walpurga's night
Woods of Walaccia
Прикрепления: TheSnowTurnsRed.gp5(4Kb) · TheatresDesVamp.gp5(16Kb) · WalpurgasNight.gp5(5Kb) · WoodsOfWalacchi.gp5(3Kb)




Сообщение отредактировал Proserpina - Среда, 06.05.2009, 20:19
 
destroyerДата: Четверг, 07.05.2009, 22:28 | Сообщение # 9
Рождённый тьмой
Чистокровный вампир
† Владыка Обители †
6605
Заслуги: 22
16
На охоте
Proserpina, огромное тебе спасибо. Я уже и не надеялся разыскать ничего кроме найденного. Хорошо когда есть такие замечательные помощники.

Вампиризм — это способ жизни, основанный на отъёме крови у жертвы, обычно питье оной из человека/животного.
 
sorrowbloodДата: Воскресенье, 10.05.2009, 04:37 | Сообщение # 10
Чистокровный вампир
† Тёмный Господин †
1618
Заслуги: 10
7
На охоте
Да....Спасибо огромное за табы.....
 
Sindikat666Дата: Четверг, 14.05.2009, 18:46 | Сообщение # 11
Будущая жертва вампира
Пользователи
1
Заслуги: 0
3
На охоте
вот ещё троечка...
Прикрепления: dances_with_sat.gp3(53Kb) · inthewood.gp4(43Kb) · queen_of_the_da.gp5(16Kb)
 
sorrowbloodДата: Воскресенье, 24.05.2009, 01:57 | Сообщение # 12
Чистокровный вампир
† Тёмный Господин †
1618
Заслуги: 10
7
На охоте
Sindikat666:Спасибо за табы....
 
ProserpinaДата: Пятница, 12.06.2009, 13:34 | Сообщение # 13
Вурдалак
† Тёмная Госпожа †
260
Заслуги: 7
7
На охоте
Нашла неплохую программу для подбора нот (Transcribe v7.20).
http://www.amdm.ru/programs/prog.php?i=30
Пока пытаюсь подобрать Anima Noir...




Сообщение отредактировал Proserpina - Пятница, 12.06.2009, 13:36
 
Aeterna_NoxДата: Суббота, 22.05.2010, 23:34 | Сообщение # 14
Покровитель Ночи
Чистокровный вампир
† Тёмный Господин †
4803
Заслуги: 17
13
На охоте
Ещё парочка:

Theatre Of Horrors:
Скачать

В текстовом формате:

La Danse Macabre du Vampire:

e|---------------------------------------------------------------------------|
B|---------------------------------------------- -----------------------------|
G|---------------------------------------------------------------------------| Verse (x2)
D|--4-------------4-------------7-------------6------------------------------|
A|--4-------------4-------------5-5-5-5-5-5-5 4-4-4-4-4-4-4------------------|
E|--2-2-2-2-2-2-2-2-2-2-2-2-2-2-------------------------------- -------------|
p.m.------- p.m.------- p.m.------- p.m.-------

unholy bloody fucking suckers...

e|---------------------------------------------------------------------------|
B|-------------------------------------------------------- -------------------|
G|---------------------------------------------------------------------------| chorus
D|--4------------------------------------------------------------------------|
A|--4----------------------------11--------------12- -------------------------|
E|--2----------------------------9---------------10--------------------------|

danse, danse, danse, the vampire danse, danse, danse, the vampire

e|---------------------------------------------------------------------------|
B|----------------------------------------- ----------------------------------|
G|---------------------------------------------------------------------------| lead guitar (x2)
D|----------11~-----------12~----------11~-----------------------------------|
A|--9-11-12-------9-11-12------9-11-12------9-11-12-11 -9---------------------|
E|-------------------------------------------------------9~------------------|

The Dark Domain:

e | ---------------------------------------------- ||
B | ---------------------------------------------- ||
G | ---------------------------------------------- ||
D | --------------2-2-------3-3--------------\\\\- ||
A | --------------2-2-------3-3--------------\PS\- ||
E | --------------0-0-------1-1--------------\\\\- ||

e | ---------------------------------------------- ||
B | ---------------------------------------------- o||
G | ---------------------------------------------- *||
D | -2-2-2-2-2-2-2-2-3-3-3-3---------------------- 4||
A | -2-2-2-2-2-2-2-2-3-3-3-3---------------------- o||
E | -0-0-0-0-0-0-0-0-1-1-1-1-1-3-1-0-1------------ ||
* * * * * * * * *
e | ---------------------------------------------- ||
B | ---------------------------------------------- o||
G | ---4-2-----------2-5-4-2---------------------- *||
D | -------5-4-2-4-5---------5-4-2-4-5------------ 4||
A | ---------------------------------------------- o||
E | ---------------------------------------------- ||

e | ---------------------------------------------- ||
B | ------------------------------3--------------- o||
G | -4--4-4-2--4--4-4-2--5--5-5-4---5-4-2-5-4-2--- *||
D | --------------------------------------------5- 8|| ^b5... on last
A | ---------------------------------------------- o||
E | ---------------------------------------------- ||

e | ---------------|------------------------------ ||
B | ---------------|------------------------------ o||
G | -----5-------5-|--------------5--5-5--5-5----- *||
D | -2---5---2---5-|-2--2-2--2-2--5--3-3--3-5----- 4||
A | -2---3---2---3-|-2--2-2--2-2--3--3-3--3-3----- o||
E | -0-------0-----|-0--0-0--0-0------------------ ||
* * * *
e | ---------------------------------------------- ||
B | ---------------------------------------------- o||
G | ---4-2-----------2-5-4-2---------------------- *||
D | -------5-4-2-4-5---------5-4-2-4-5------------ 8||
A | ---------------------------------------------- o||
E | ---------------------------------------------- ||

e | ---------------------------------------------- ||
B | ------------------------------3--------------- o||
G | -4--4-4-2--4--4-4-2--5--5-5-4---5-4-2-5-4-2--- *||
D | --------------------------------------------5- 4||
A | ---------------------------------------------- o||
E | ---------------------------------------------- ||

e | ---------------------------------------------- ||
B | ---------------------------------------------- ||
G | -----4-------------------4-------------------- ||
D | -2---4---5---4--5-4--2---4---5---4--5-4------- ||
A | -2---2---5---4--5-4--2---2---5---4--5-4------- ||
E | -0-------3---2--3-2--0-------3---2--3-2------- ||
Accoustic Accompaniment
e | ---------------------------------------------- ||
B | ----5---------5---------5-----(---5---)------- o|| (play the 1st )
G | -4---4-4---4---4-4---4---4-4--(4---4-4)------- *|| (and 3rd times)
D | ---------------------------------------------- 4||
A | ---------------------------------------------- o||
E | ---------------------------------------------- ||

e | ---------------------------------------------- ||
B | ---------------------------------------------- o||
G | ----------44444444---------------------------- *||
D | -22222222-44444444-55555555-4444-55-44-------- 2||
A | -22222222-22222222-55555555-4444-55-44-------- o||
E | -00000000----------33333333-2222-33-22-------- ||
****** ****** ****** ** * *
e | ---------------------------------------------- ||
B | ---------------------------------------------- o||
G | ---------------------------------------------- *||
D | -2-2-2-2-2-2-2-2-3-3-3-3---------------------- 4||
A | -2-2-2-2-2-2-2-2-3-3-3-3---------------------- o||
E | -0-0-0-0-0-0-0-0-1-1-1-1-1-3-1-0-1------------ ||
* * * * * * * * *

e | ---------------------------------------------- ||
B | ---------------------------------------------- o|| Start Fade on 6
G | ---4-2-----------2-5-4-2---------------------- *||
D | -------5-4-2-4-5---------5-4-2-4-5------------ 7||
A | ---------------------------------------------- o||
E | ---------------------------------------------- ||



Каждый следует за той волною мрака, в которой ему суждено погибнуть.

 
BLADE_666Дата: Понедельник, 02.04.2012, 14:03 | Сообщение # 15
Светский вампир
Энергетический вампир
† Тёмный Господин †
704
Заслуги: 15
14
На охоте
Вот сегодня сутра попробовал подобрать Twilight )) Наверняка конечно ошибок наделал, но если кому понравится, был несказанно рад помочь smile
Прикрепления: TDV-Twilight.gp5(17Kb)
 
Форум Вампиров » Разное » В поисках... » Ищу табулатуры TDV (Табулатуры для Gp5)
Страница 1 из 11
Поиск:

Перед работой с картой обязательно прочти текст!!!

На этой карте можешь отметить себя, только будь внимательнее, редактировать введенные данные ты не сможешь без администрации клуба. Поэтому, когда вводишь свои данные, необходимо все проверить, прежде чем отсылать их. Чтобы добавить себя, увеличь карту, нажми на месте своего обитания, появится окно в котором вводишь свои данные и нажимаешь добавить.

Зарегистрируйтесь для получения доступа